ISO-10303-21;
HEADER;
FILE_DESCRIPTION( ( 'Unknown' ), '1' );
FILE_NAME( 'C:/DiscoD/Disciplinas/EM824/gear.stp', 'Unknown', ( 'Unknown' ), ( 'Unknown' ), 'XStep 1.0', 'Unknown', ' ' );
FILE_SCHEMA( ( 'CONFIG_CONTROL_DESIGN' ) );
ENDSEC;
DATA;
#1 = DESIGN_CONTEXT( '', #27, 'design' );
#2 = APPLICATION_PROTOCOL_DEFINITION( 'INTERNATIONAL STANDARD', 'config_control_design', 1994, #27 );
#3 = PRODUCT_CATEGORY_RELATIONSHIP( 'NONE', 'NONE', #28, #29 );
#4 = DATE_AND_TIME( #30, #31 );
#5 = DATE_TIME_ROLE( 'creation_date' );
#6 = DATE_TIME_ROLE( 'classification_date' );
#7 = PERSON_AND_ORGANIZATION_ROLE( 'creator' );
#8 = PERSON_AND_ORGANIZATION_ROLE( 'design_supplier' );
#9 = PERSON_AND_ORGANIZATION_ROLE( 'classification_officer' );
#10 = PERSON_AND_ORGANIZATION_ROLE( 'design_owner' );
#11 = APPROVAL_PERSON_ORGANIZATION( #32, #33, #34 );
#12 = APPROVAL_DATE_TIME( #4, #33 );
#13 = CC_DESIGN_APPROVAL( #33, ( #35, #36, #37 ) );
#14 = CC_DESIGN_DATE_AND_TIME_ASSIGNMENT( #4, #5, ( #37 ) );
#15 = CC_DESIGN_DATE_AND_TIME_ASSIGNMENT( #4, #6, ( #35 ) );
#16 = CC_DESIGN_PERSON_AND_ORGANIZATION_ASSIGNMENT( #32, #10, ( #38 ) );
#17 = CC_DESIGN_PERSON_AND_ORGANIZATION_ASSIGNMENT( #32, #7, ( #37 ) );
#18 = CC_DESIGN_PERSON_AND_ORGANIZATION_ASSIGNMENT( #32, #7, ( #36 ) );
#19 = CC_DESIGN_PERSON_AND_ORGANIZATION_ASSIGNMENT( #32, #8, ( #36 ) );
#20 = CC_DESIGN_SECURITY_CLASSIFICATION( #35, ( #36 ) );
#21 = CC_DESIGN_PERSON_AND_ORGANIZATION_ASSIGNMENT( #32, #9, ( #35 ) );
#22 = SHAPE_DEFINITION_REPRESENTATION( #39, #40 );
#23 =  ( GEOMETRIC_REPRESENTATION_CONTEXT( 3 )GLOBAL_UNCERTAINTY_ASSIGNED_CONTEXT( ( #43 ) )GLOBAL_UNIT_ASSIGNED_CONTEXT( ( #45, #46, #47 ) )REPRESENTATION_CONTEXT( 'NONE', 'WORKSPACE' ) );
#27 = APPLICATION_CONTEXT( 'CONFIGURATION CONTROLLED 3D DESIGNS OF MECHANICAL PARTS AND ASSEMBLIES' );
#28 = PRODUCT_CATEGORY( 'part', 'NONE' );
#29 = PRODUCT_RELATED_PRODUCT_CATEGORY( 'detail', ' ', ( #38 ) );
#30 = CALENDAR_DATE( 2009, 16, 10 );
#31 = LOCAL_TIME( 10, 34, 3.00000000000000, #49 );
#32 = PERSON_AND_ORGANIZATION( #50, #51 );
#33 = APPROVAL( #52, 'SOLID MODEL' );
#34 = APPROVAL_ROLE( 'APPROVED' );
#35 = SECURITY_CLASSIFICATION( '', '', #53 );
#36 = PRODUCT_DEFINITION_FORMATION_WITH_SPECIFIED_SOURCE( ' ', 'NONE', #38, .NOT_KNOWN. );
#37 = PRODUCT_DEFINITION( 'NONE', 'NONE', #36, #1 );
#38 = PRODUCT( '1', '1', 'PART-1-DESC', ( #54 ) );
#39 = PRODUCT_DEFINITION_SHAPE( 'NONE', 'NONE', #37 );
#40 = ADVANCED_BREP_SHAPE_REPRESENTATION( '1', ( #55, #56 ), #23 );
#43 = UNCERTAINTY_MEASURE_WITH_UNIT( LENGTH_MEASURE( 0.00100000000000000 ), #45, '', '' );
#45 =  ( CONVERSION_BASED_UNIT( 'MILLIMETRE', #59 )LENGTH_UNIT(  )NAMED_UNIT( #62 ) );
#46 =  ( NAMED_UNIT( #64 )PLANE_ANGLE_UNIT(  )SI_UNIT( $, .RADIAN. ) );
#47 =  ( NAMED_UNIT( #64 )SOLID_ANGLE_UNIT(  )SI_UNIT( $, .STERADIAN. ) );
#49 = COORDINATED_UNIVERSAL_TIME_OFFSET( 3, 0, .BEHIND. );
#50 = PERSON( '', 'UNSPECIFIED', $, $, $, $ );
#51 = ORGANIZATION( 'UNSPECIFIED', 'UNSPECIFIED', 'UNSPECIFIED' );
#52 = APPROVAL_STATUS( 'approved' );
#53 = SECURITY_CLASSIFICATION_LEVEL( 'unclassified' );
#54 = MECHANICAL_CONTEXT( '', #27, 'mechanical' );
#55 = MANIFOLD_SOLID_BREP( '1', #70 );
#56 = AXIS2_PLACEMENT_3D( '', #71, #72, #73 );
#59 = LENGTH_MEASURE_WITH_UNIT( LENGTH_MEASURE( 1.00000000000000 ), #74 );
#62 = DIMENSIONAL_EXPONENTS( 1.00000000000000, 0.000000000000000, 0.000000000000000, 0.000000000000000, 0.000000000000000, 0.000000000000000, 0.000000000000000 );
#64 = DIMENSIONAL_EXPONENTS( 0.000000000000000, 0.000000000000000, 0.000000000000000, 0.000000000000000, 0.000000000000000, 0.000000000000000, 0.000000000000000 );
#70 = CLOSED_SHELL( '', ( #75, #76, #77, #78, #79, #80, #81, #82, #83, #84, #85, #86, #87, #88, #89, #90, #91, #92, #93 ) );
#71 = CARTESIAN_POINT( '', ( 0.000000000000000, 0.000000000000000, 0.000000000000000 ) );
#72 = DIRECTION( '', ( 0.000000000000000, 0.000000000000000, 1.00000000000000 ) );
#73 = DIRECTION( '', ( 1.00000000000000, 0.000000000000000, 0.000000000000000 ) );
#74 =  ( NAMED_UNIT( #62 )LENGTH_UNIT(  )SI_UNIT( .MILLI., .METRE. ) );
#75 = ADVANCED_FACE( '', ( #95, #96 ), #97, .T. );
#76 = ADVANCED_FACE( '', ( #98, #99 ), #100, .F. );
#77 = ADVANCED_FACE( '', ( #101, #102 ), #103, .F. );
#78 = ADVANCED_FACE( '', ( #104 ), #105, .T. );
#79 = ADVANCED_FACE( '', ( #106, #107 ), #108, .F. );
#80 = ADVANCED_FACE( '', ( #109, #110 ), #111, .F. );
#81 = ADVANCED_FACE( '', ( #112, #113 ), #114, .T. );
#82 = ADVANCED_FACE( '', ( #115, #116 ), #117, .F. );
#83 = ADVANCED_FACE( '', ( #118, #119 ), #120, .T. );
#84 = ADVANCED_FACE( '', ( #121, #122 ), #123, .T. );
#85 = ADVANCED_FACE( '', ( #124, #125 ), #126, .T. );
#86 = ADVANCED_FACE( '', ( #127, #128 ), #129, .F. );
#87 = ADVANCED_FACE( '', ( #130, #131 ), #132, .T. );
#88 = ADVANCED_FACE( '', ( #133, #134 ), #135, .T. );
#89 = ADVANCED_FACE( '', ( #136, #137 ), #138, .T. );
#90 = ADVANCED_FACE( '', ( #139, #140 ), #141, .T. );
#91 = ADVANCED_FACE( '', ( #142, #143 ), #144, .F. );
#92 = ADVANCED_FACE( '', ( #145, #146 ), #147, .T. );
#93 = ADVANCED_FACE( '', ( #148, #149 ), #150, .T. );
#95 = FACE_OUTER_BOUND( '', #151, .T. );
#96 = FACE_OUTER_BOUND( '', #152, .T. );
#97 = CYLINDRICAL_SURFACE( '', #153, 36.0000000000000 );
#98 = FACE_OUTER_BOUND( '', #154, .T. );
#99 = FACE_BOUND( '', #155, .T. );
#100 = CONICAL_SURFACE( '', #156, 988.108157021778, 1.41642348378977 );
#101 = FACE_OUTER_BOUND( '', #157, .T. );
#102 = FACE_OUTER_BOUND( '', #158, .T. );
#103 = TOROIDAL_SURFACE( '', #159, 8.99999999999999, 3.00000000000000 );
#104 = FACE_OUTER_BOUND( '', #160, .T. );
#105 = PLANE( '', #161 );
#106 = FACE_OUTER_BOUND( '', #162, .T. );
#107 = FACE_OUTER_BOUND( '', #163, .T. );
#108 = CYLINDRICAL_SURFACE( '', #164, 11.8333046147829 );
#109 = FACE_OUTER_BOUND( '', #165, .T. );
#110 = FACE_OUTER_BOUND( '', #166, .T. );
#111 = TOROIDAL_SURFACE( '', #167, 9.00000000000000, 3.00000000000000 );
#112 = FACE_BOUND( '', #168, .T. );
#113 = FACE_OUTER_BOUND( '', #169, .T. );
#114 = PLANE( '', #170 );
#115 = FACE_OUTER_BOUND( '', #171, .T. );
#116 = FACE_OUTER_BOUND( '', #172, .T. );
#117 = TOROIDAL_SURFACE( '', #173, 34.0000000000000, 1.00000000000000 );
#118 = FACE_OUTER_BOUND( '', #174, .T. );
#119 = FACE_OUTER_BOUND( '', #175, .T. );
#120 = CYLINDRICAL_SURFACE( '', #176, 33.0000000000000 );
#121 = FACE_BOUND( '', #177, .T. );
#122 = FACE_OUTER_BOUND( '', #178, .T. );
#123 = CONICAL_SURFACE( '', #179, 33.0000000000000, 0.785398163397448 );
#124 = FACE_BOUND( '', #180, .T. );
#125 = FACE_OUTER_BOUND( '', #181, .T. );
#126 = PLANE( '', #182 );
#127 = FACE_OUTER_BOUND( '', #183, .T. );
#128 = FACE_OUTER_BOUND( '', #184, .T. );
#129 = TOROIDAL_SURFACE( '', #185, 27.3860009363294, 2.00000000000000 );
#130 = FACE_BOUND( '', #186, .T. );
#131 = FACE_OUTER_BOUND( '', #187, .T. );
#132 = CONICAL_SURFACE( '', #188, 25.5133425811913, 0.358770670270572 );
#133 = FACE_OUTER_BOUND( '', #189, .T. );
#134 = FACE_OUTER_BOUND( '', #190, .T. );
#135 = TOROIDAL_SURFACE( '', #191, 19.3069995318353, 1.00000000000000 );
#136 = FACE_BOUND( '', #192, .T. );
#137 = FACE_OUTER_BOUND( '', #193, .T. );
#138 = PLANE( '', #194 );
#139 = FACE_OUTER_BOUND( '', #195, .T. );
#140 = FACE_OUTER_BOUND( '', #196, .T. );
#141 = TOROIDAL_SURFACE( '', #197, 13.0000000000000, 1.00000000000000 );
#142 = FACE_OUTER_BOUND( '', #198, .T. );
#143 = FACE_OUTER_BOUND( '', #199, .T. );
#144 = CYLINDRICAL_SURFACE( '', #200, 12.0000000000000 );
#145 = FACE_OUTER_BOUND( '', #201, .T. );
#146 = FACE_OUTER_BOUND( '', #202, .T. );
#147 = TOROIDAL_SURFACE( '', #203, 13.8333046147829, 2.00000000000000 );
#148 = FACE_OUTER_BOUND( '', #204, .T. );
#149 = FACE_BOUND( '', #205, .T. );
#150 = PLANE( '', #206 );
#151 = EDGE_LOOP( '', ( #207 ) );
#152 = EDGE_LOOP( '', ( #208 ) );
#153 = AXIS2_PLACEMENT_3D( '', #209, #210, #211 );
#154 = EDGE_LOOP( '', ( #212 ) );
#155 = VERTEX_LOOP( '', #213 );
#156 = AXIS2_PLACEMENT_3D( '', #214, #215, #216 );
#157 = EDGE_LOOP( '', ( #217 ) );
#158 = EDGE_LOOP( '', ( #218 ) );
#159 = AXIS2_PLACEMENT_3D( '', #219, #220, #221 );
#160 = EDGE_LOOP( '', ( #222 ) );
#161 = AXIS2_PLACEMENT_3D( '', #223, #224, #225 );
#162 = EDGE_LOOP( '', ( #226 ) );
#163 = EDGE_LOOP( '', ( #227 ) );
#164 = AXIS2_PLACEMENT_3D( '', #228, #229, #230 );
#165 = EDGE_LOOP( '', ( #231 ) );
#166 = EDGE_LOOP( '', ( #232 ) );
#167 = AXIS2_PLACEMENT_3D( '', #233, #234, #235 );
#168 = EDGE_LOOP( '', ( #236 ) );
#169 = EDGE_LOOP( '', ( #237 ) );
#170 = AXIS2_PLACEMENT_3D( '', #238, #239, #240 );
#171 = EDGE_LOOP( '', ( #241 ) );
#172 = EDGE_LOOP( '', ( #242 ) );
#173 = AXIS2_PLACEMENT_3D( '', #243, #244, #245 );
#174 = EDGE_LOOP( '', ( #246 ) );
#175 = EDGE_LOOP( '', ( #247 ) );
#176 = AXIS2_PLACEMENT_3D( '', #248, #249, #250 );
#177 = EDGE_LOOP( '', ( #251 ) );
#178 = EDGE_LOOP( '', ( #252 ) );
#179 = AXIS2_PLACEMENT_3D( '', #253, #254, #255 );
#180 = EDGE_LOOP( '', ( #256 ) );
#181 = EDGE_LOOP( '', ( #257 ) );
#182 = AXIS2_PLACEMENT_3D( '', #258, #259, #260 );
#183 = EDGE_LOOP( '', ( #261 ) );
#184 = EDGE_LOOP( '', ( #262 ) );
#185 = AXIS2_PLACEMENT_3D( '', #263, #264, #265 );
#186 = EDGE_LOOP( '', ( #266 ) );
#187 = EDGE_LOOP( '', ( #267 ) );
#188 = AXIS2_PLACEMENT_3D( '', #268, #269, #270 );
#189 = EDGE_LOOP( '', ( #271 ) );
#190 = EDGE_LOOP( '', ( #272 ) );
#191 = AXIS2_PLACEMENT_3D( '', #273, #274, #275 );
#192 = EDGE_LOOP( '', ( #276 ) );
#193 = EDGE_LOOP( '', ( #277 ) );
#194 = AXIS2_PLACEMENT_3D( '', #278, #279, #280 );
#195 = EDGE_LOOP( '', ( #281 ) );
#196 = EDGE_LOOP( '', ( #282 ) );
#197 = AXIS2_PLACEMENT_3D( '', #283, #284, #285 );
#198 = EDGE_LOOP( '', ( #286 ) );
#199 = EDGE_LOOP( '', ( #287 ) );
#200 = AXIS2_PLACEMENT_3D( '', #288, #289, #290 );
#201 = EDGE_LOOP( '', ( #291 ) );
#202 = EDGE_LOOP( '', ( #292 ) );
#203 = AXIS2_PLACEMENT_3D( '', #293, #294, #295 );
#204 = EDGE_LOOP( '', ( #296 ) );
#205 = EDGE_LOOP( '', ( #297 ) );
#206 = AXIS2_PLACEMENT_3D( '', #298, #299, #300 );
#207 = ORIENTED_EDGE( '', *, *, #301, .T. );
#208 = ORIENTED_EDGE( '', *, *, #302, .F. );
#209 = CARTESIAN_POINT( '', ( 0.000000000000000, 0.000000000000000, 57.1500000000000 ) );
#210 = DIRECTION( '', ( 0.000000000000000, 0.000000000000000, -1.00000000000000 ) );
#211 = DIRECTION( '', ( 1.00000000000000, 0.000000000000000, 0.000000000000000 ) );
#212 = ORIENTED_EDGE( '', *, *, #303, .T. );
#213 = VERTEX_POINT( '', #304 );
#214 = CARTESIAN_POINT( '', ( 0.000000000000000, 0.000000000000000, 137.464193004617 ) );
#215 = DIRECTION( '', ( 0.000000000000000, 0.000000000000000, 1.00000000000000 ) );
#216 = DIRECTION( '', ( 1.00000000000000, 0.000000000000000, 0.000000000000000 ) );
#217 = ORIENTED_EDGE( '', *, *, #305, .T. );
#218 = ORIENTED_EDGE( '', *, *, #303, .F. );
#219 = CARTESIAN_POINT( '', ( 0.000000000000000, 0.000000000000000, -11.8957392412508 ) );
#220 = DIRECTION( '', ( 0.000000000000000, 0.000000000000000, 1.00000000000000 ) );
#221 = DIRECTION( '', ( 1.00000000000000, 0.000000000000000, 0.000000000000000 ) );
#222 = ORIENTED_EDGE( '', *, *, #306, .F. );
#223 = CARTESIAN_POINT( '', ( 0.000000000000000, 0.000000000000000, -20.9688659200078 ) );
#224 = DIRECTION( '', ( 0.000000000000000, 0.000000000000000, -1.00000000000000 ) );
#225 = DIRECTION( '', ( -1.00000000000000, 0.000000000000000, 0.000000000000000 ) );
#226 = ORIENTED_EDGE( '', *, *, #307, .T. );
#227 = ORIENTED_EDGE( '', *, *, #305, .F. );
#228 = CARTESIAN_POINT( '', ( 0.000000000000000, 0.000000000000000, 57.1500000000000 ) );
#229 = DIRECTION( '', ( 0.000000000000000, 0.000000000000000, -1.00000000000000 ) );
#230 = DIRECTION( '', ( 1.00000000000000, 0.000000000000000, 0.000000000000000 ) );
#231 = ORIENTED_EDGE( '', *, *, #306, .T. );
#232 = ORIENTED_EDGE( '', *, *, #308, .F. );
#233 = CARTESIAN_POINT( '', ( 0.000000000000000, 0.000000000000000, -23.9688659200078 ) );
#234 = DIRECTION( '', ( 0.000000000000000, 0.000000000000000, 1.00000000000000 ) );
#235 = DIRECTION( '', ( 1.00000000000000, 0.000000000000000, 0.000000000000000 ) );
#236 = ORIENTED_EDGE( '', *, *, #309, .T. );
#237 = ORIENTED_EDGE( '', *, *, #301, .F. );
#238 = CARTESIAN_POINT( '', ( 36.0000000000000, 0.000000000000000, -5.00000000000000 ) );
#239 = DIRECTION( '', ( 0.000000000000000, 0.000000000000000, -1.00000000000000 ) );
#240 = DIRECTION( '', ( -1.00000000000000, 0.000000000000000, 0.000000000000000 ) );
#241 = ORIENTED_EDGE( '', *, *, #310, .T. );
#242 = ORIENTED_EDGE( '', *, *, #309, .F. );
#243 = CARTESIAN_POINT( '', ( 0.000000000000000, 0.000000000000000, -6.00000000000000 ) );
#244 = DIRECTION( '', ( 0.000000000000000, 0.000000000000000, 1.00000000000000 ) );
#245 = DIRECTION( '', ( 1.00000000000000, 0.000000000000000, 0.000000000000000 ) );
#246 = ORIENTED_EDGE( '', *, *, #311, .T. );
#247 = ORIENTED_EDGE( '', *, *, #310, .F. );
#248 = CARTESIAN_POINT( '', ( 0.000000000000000, 0.000000000000000, 57.1500000000000 ) );
#249 = DIRECTION( '', ( 0.000000000000000, 0.000000000000000, -1.00000000000000 ) );
#250 = DIRECTION( '', ( 1.00000000000000, 0.000000000000000, 0.000000000000000 ) );
#251 = ORIENTED_EDGE( '', *, *, #312, .T. );
#252 = ORIENTED_EDGE( '', *, *, #311, .F. );
#253 = CARTESIAN_POINT( '', ( 0.000000000000000, 0.000000000000000, -12.0000000000000 ) );
#254 = DIRECTION( '', ( 0.000000000000000, 0.000000000000000, 1.00000000000000 ) );
#255 = DIRECTION( '', ( 1.00000000000000, 0.000000000000000, 0.000000000000000 ) );
#256 = ORIENTED_EDGE( '', *, *, #313, .T. );
#257 = ORIENTED_EDGE( '', *, *, #312, .F. );
#258 = CARTESIAN_POINT( '', ( 32.0000000000000, 0.000000000000000, -13.0000000000000 ) );
#259 = DIRECTION( '', ( 0.000000000000000, 0.000000000000000, -1.00000000000000 ) );
#260 = DIRECTION( '', ( -1.00000000000000, 0.000000000000000, 0.000000000000000 ) );
#261 = ORIENTED_EDGE( '', *, *, #314, .T. );
#262 = ORIENTED_EDGE( '', *, *, #313, .F. );
#263 = CARTESIAN_POINT( '', ( 0.000000000000000, 0.000000000000000, -15.0000000000000 ) );
#264 = DIRECTION( '', ( 0.000000000000000, 0.000000000000000, 1.00000000000000 ) );
#265 = DIRECTION( '', ( 1.00000000000000, 0.000000000000000, 0.000000000000000 ) );
#266 = ORIENTED_EDGE( '', *, *, #315, .T. );
#267 = ORIENTED_EDGE( '', *, *, #314, .F. );
#268 = CARTESIAN_POINT( '', ( 0.000000000000000, 0.000000000000000, -14.2977531168232 ) );
#269 = DIRECTION( '', ( 0.000000000000000, 0.000000000000000, 1.00000000000000 ) );
#270 = DIRECTION( '', ( 1.00000000000000, 0.000000000000000, 0.000000000000000 ) );
#271 = ORIENTED_EDGE( '', *, *, #316, .T. );
#272 = ORIENTED_EDGE( '', *, *, #315, .F. );
#273 = CARTESIAN_POINT( '', ( 0.000000000000000, 0.000000000000000, -28.0000000000000 ) );
#274 = DIRECTION( '', ( 0.000000000000000, 0.000000000000000, 1.00000000000000 ) );
#275 = DIRECTION( '', ( 1.00000000000000, 0.000000000000000, 0.000000000000000 ) );
#276 = ORIENTED_EDGE( '', *, *, #317, .T. );
#277 = ORIENTED_EDGE( '', *, *, #316, .F. );
#278 = CARTESIAN_POINT( '', ( 13.0000000000000, 0.000000000000000, -29.0000000000000 ) );
#279 = DIRECTION( '', ( 0.000000000000000, 0.000000000000000, -1.00000000000000 ) );
#280 = DIRECTION( '', ( -1.00000000000000, 0.000000000000000, 0.000000000000000 ) );
#281 = ORIENTED_EDGE( '', *, *, #318, .T. );
#282 = ORIENTED_EDGE( '', *, *, #317, .F. );
#283 = CARTESIAN_POINT( '', ( 0.000000000000000, 0.000000000000000, -28.0000000000000 ) );
#284 = DIRECTION( '', ( 0.000000000000000, 0.000000000000000, 1.00000000000000 ) );
#285 = DIRECTION( '', ( 1.00000000000000, 0.000000000000000, 0.000000000000000 ) );
#286 = ORIENTED_EDGE( '', *, *, #308, .T. );
#287 = ORIENTED_EDGE( '', *, *, #318, .F. );
#288 = CARTESIAN_POINT( '', ( 0.000000000000000, 0.000000000000000, 57.1500000000000 ) );
#289 = DIRECTION( '', ( 0.000000000000000, 0.000000000000000, -1.00000000000000 ) );
#290 = DIRECTION( '', ( 1.00000000000000, 0.000000000000000, 0.000000000000000 ) );
#291 = ORIENTED_EDGE( '', *, *, #319, .T. );
#292 = ORIENTED_EDGE( '', *, *, #307, .F. );
#293 = CARTESIAN_POINT( '', ( 0.000000000000000, 0.000000000000000, -2.00000000000000 ) );
#294 = DIRECTION( '', ( 0.000000000000000, 0.000000000000000, 1.00000000000000 ) );
#295 = DIRECTION( '', ( 1.00000000000000, 0.000000000000000, 0.000000000000000 ) );
#296 = ORIENTED_EDGE( '', *, *, #302, .T. );
#297 = ORIENTED_EDGE( '', *, *, #319, .F. );
#298 = CARTESIAN_POINT( '', ( 36.0000000000000, 0.000000000000000, 1.95156391047391E-015 ) );
#299 = DIRECTION( '', ( 0.000000000000000, 0.000000000000000, 1.00000000000000 ) );
#300 = DIRECTION( '', ( 1.00000000000000, 0.000000000000000, 0.000000000000000 ) );
#301 = EDGE_CURVE( '', #320, #320, #321, .T. );
#302 = EDGE_CURVE( '', #322, #322, #323, .T. );
#303 = EDGE_CURVE( '', #324, #324, #325, .T. );
#304 = CARTESIAN_POINT( '', ( 0.000000000000000, 0.000000000000000, -16.2962376237623 ) );
#305 = EDGE_CURVE( '', #326, #326, #327, .T. );
#306 = EDGE_CURVE( '', #328, #328, #329, .T. );
#307 = EDGE_CURVE( '', #330, #330, #331, .T. );
#308 = EDGE_CURVE( '', #332, #332, #333, .T. );
#309 = EDGE_CURVE( '', #334, #334, #335, .T. );
#310 = EDGE_CURVE( '', #336, #336, #337, .T. );
#311 = EDGE_CURVE( '', #338, #338, #339, .T. );
#312 = EDGE_CURVE( '', #340, #340, #341, .T. );
#313 = EDGE_CURVE( '', #342, #342, #343, .T. );
#314 = EDGE_CURVE( '', #344, #344, #345, .T. );
#315 = EDGE_CURVE( '', #346, #346, #347, .T. );
#316 = EDGE_CURVE( '', #348, #348, #349, .T. );
#317 = EDGE_CURVE( '', #350, #350, #351, .T. );
#318 = EDGE_CURVE( '', #352, #352, #353, .T. );
#319 = EDGE_CURVE( '', #354, #354, #355, .T. );
#320 = VERTEX_POINT( '', #356 );
#321 = CIRCLE( '', #357, 36.0000000000000 );
#322 = VERTEX_POINT( '', #358 );
#323 = CIRCLE( '', #359, 36.0000000000000 );
#324 = VERTEX_POINT( '', #360 );
#325 = CIRCLE( '', #361, 8.99999999999999 );
#326 = VERTEX_POINT( '', #362 );
#327 = CIRCLE( '', #363, 11.8333046147829 );
#328 = VERTEX_POINT( '', #364 );
#329 = CIRCLE( '', #365, 9.00000000000000 );
#330 = VERTEX_POINT( '', #366 );
#331 = CIRCLE( '', #367, 11.8333046147829 );
#332 = VERTEX_POINT( '', #368 );
#333 = CIRCLE( '', #369, 12.0000000000000 );
#334 = VERTEX_POINT( '', #370 );
#335 = CIRCLE( '', #371, 34.0000000000000 );
#336 = VERTEX_POINT( '', #372 );
#337 = CIRCLE( '', #373, 33.0000000000000 );
#338 = VERTEX_POINT( '', #374 );
#339 = CIRCLE( '', #375, 33.0000000000000 );
#340 = VERTEX_POINT( '', #376 );
#341 = CIRCLE( '', #377, 32.0000000000000 );
#342 = VERTEX_POINT( '', #378 );
#343 = CIRCLE( '', #379, 27.3860009363294 );
#344 = VERTEX_POINT( '', #380 );
#345 = CIRCLE( '', #381, 25.5133425811913 );
#346 = VERTEX_POINT( '', #382 );
#347 = CIRCLE( '', #383, 20.2433287094044 );
#348 = VERTEX_POINT( '', #384 );
#349 = CIRCLE( '', #385, 19.3069995318353 );
#350 = VERTEX_POINT( '', #386 );
#351 = CIRCLE( '', #387, 13.0000000000000 );
#352 = VERTEX_POINT( '', #388 );
#353 = CIRCLE( '', #389, 12.0000000000000 );
#354 = VERTEX_POINT( '', #390 );
#355 = CIRCLE( '', #391, 13.8333046147829 );
#356 = CARTESIAN_POINT( '', ( 36.0000000000000, 0.000000000000000, -5.00000000000000 ) );
#357 = AXIS2_PLACEMENT_3D( '', #392, #393, #394 );
#358 = CARTESIAN_POINT( '', ( 36.0000000000000, 0.000000000000000, 0.000000000000000 ) );
#359 = AXIS2_PLACEMENT_3D( '', #395, #396, #397 );
#360 = CARTESIAN_POINT( '', ( 8.99999999999999, 0.000000000000000, -14.8957392412509 ) );
#361 = AXIS2_PLACEMENT_3D( '', #398, #399, #400 );
#362 = CARTESIAN_POINT( '', ( 11.8333046147829, 0.000000000000000, -12.8818350580200 ) );
#363 = AXIS2_PLACEMENT_3D( '', #401, #402, #403 );
#364 = CARTESIAN_POINT( '', ( 9.00000000000000, 0.000000000000000, -20.9688659200078 ) );
#365 = AXIS2_PLACEMENT_3D( '', #404, #405, #406 );
#366 = CARTESIAN_POINT( '', ( 11.8333046147829, 0.000000000000000, -1.99999999999999 ) );
#367 = AXIS2_PLACEMENT_3D( '', #407, #408, #409 );
#368 = CARTESIAN_POINT( '', ( 12.0000000000000, 0.000000000000000, -23.9688659200078 ) );
#369 = AXIS2_PLACEMENT_3D( '', #410, #411, #412 );
#370 = CARTESIAN_POINT( '', ( 34.0000000000000, 0.000000000000000, -5.00000000000000 ) );
#371 = AXIS2_PLACEMENT_3D( '', #413, #414, #415 );
#372 = CARTESIAN_POINT( '', ( 33.0000000000000, 0.000000000000000, -6.00000000000000 ) );
#373 = AXIS2_PLACEMENT_3D( '', #416, #417, #418 );
#374 = CARTESIAN_POINT( '', ( 33.0000000000000, 0.000000000000000, -12.0000000000000 ) );
#375 = AXIS2_PLACEMENT_3D( '', #419, #420, #421 );
#376 = CARTESIAN_POINT( '', ( 32.0000000000000, 0.000000000000000, -13.0000000000000 ) );
#377 = AXIS2_PLACEMENT_3D( '', #422, #423, #424 );
#378 = CARTESIAN_POINT( '', ( 27.3860009363294, 0.000000000000000, -13.0000000000000 ) );
#379 = AXIS2_PLACEMENT_3D( '', #425, #426, #427 );
#380 = CARTESIAN_POINT( '', ( 25.5133425811913, 0.000000000000000, -14.2977531168232 ) );
#381 = AXIS2_PLACEMENT_3D( '', #428, #429, #430 );
#382 = CARTESIAN_POINT( '', ( 20.2433287094044, 0.000000000000000, -28.3511234415884 ) );
#383 = AXIS2_PLACEMENT_3D( '', #431, #432, #433 );
#384 = CARTESIAN_POINT( '', ( 19.3069995318353, 0.000000000000000, -29.0000000000000 ) );
#385 = AXIS2_PLACEMENT_3D( '', #434, #435, #436 );
#386 = CARTESIAN_POINT( '', ( 13.0000000000000, 0.000000000000000, -29.0000000000000 ) );
#387 = AXIS2_PLACEMENT_3D( '', #437, #438, #439 );
#388 = CARTESIAN_POINT( '', ( 12.0000000000000, 0.000000000000000, -28.0000000000000 ) );
#389 = AXIS2_PLACEMENT_3D( '', #440, #441, #442 );
#390 = CARTESIAN_POINT( '', ( 13.8333046147829, 0.000000000000000, 0.000000000000000 ) );
#391 = AXIS2_PLACEMENT_3D( '', #443, #444, #445 );
#392 = CARTESIAN_POINT( '', ( 0.000000000000000, 0.000000000000000, -5.00000000000000 ) );
#393 = DIRECTION( '', ( 0.000000000000000, 0.000000000000000, 1.00000000000000 ) );
#394 = DIRECTION( '', ( 1.00000000000000, 0.000000000000000, 0.000000000000000 ) );
#395 = CARTESIAN_POINT( '', ( 0.000000000000000, 0.000000000000000, 0.000000000000000 ) );
#396 = DIRECTION( '', ( 0.000000000000000, 0.000000000000000, 1.00000000000000 ) );
#397 = DIRECTION( '', ( 1.00000000000000, 0.000000000000000, 0.000000000000000 ) );
#398 = CARTESIAN_POINT( '', ( 0.000000000000000, 0.000000000000000, -14.8957392412509 ) );
#399 = DIRECTION( '', ( 0.000000000000000, 0.000000000000000, 1.00000000000000 ) );
#400 = DIRECTION( '', ( 1.00000000000000, 0.000000000000000, 0.000000000000000 ) );
#401 = CARTESIAN_POINT( '', ( 0.000000000000000, 0.000000000000000, -12.8818350580200 ) );
#402 = DIRECTION( '', ( 0.000000000000000, 0.000000000000000, 1.00000000000000 ) );
#403 = DIRECTION( '', ( 1.00000000000000, 0.000000000000000, 0.000000000000000 ) );
#404 = CARTESIAN_POINT( '', ( 0.000000000000000, 0.000000000000000, -20.9688659200078 ) );
#405 = DIRECTION( '', ( 0.000000000000000, 0.000000000000000, 1.00000000000000 ) );
#406 = DIRECTION( '', ( 1.00000000000000, 0.000000000000000, 0.000000000000000 ) );
#407 = CARTESIAN_POINT( '', ( 0.000000000000000, 0.000000000000000, -1.99999999999999 ) );
#408 = DIRECTION( '', ( 0.000000000000000, 0.000000000000000, 1.00000000000000 ) );
#409 = DIRECTION( '', ( 1.00000000000000, 0.000000000000000, 0.000000000000000 ) );
#410 = CARTESIAN_POINT( '', ( 0.000000000000000, 0.000000000000000, -23.9688659200078 ) );
#411 = DIRECTION( '', ( 0.000000000000000, 0.000000000000000, 1.00000000000000 ) );
#412 = DIRECTION( '', ( 1.00000000000000, 0.000000000000000, 0.000000000000000 ) );
#413 = CARTESIAN_POINT( '', ( 0.000000000000000, 0.000000000000000, -5.00000000000000 ) );
#414 = DIRECTION( '', ( 0.000000000000000, 0.000000000000000, 1.00000000000000 ) );
#415 = DIRECTION( '', ( 1.00000000000000, 0.000000000000000, 0.000000000000000 ) );
#416 = CARTESIAN_POINT( '', ( 0.000000000000000, 0.000000000000000, -6.00000000000000 ) );
#417 = DIRECTION( '', ( 0.000000000000000, 0.000000000000000, 1.00000000000000 ) );
#418 = DIRECTION( '', ( 1.00000000000000, 0.000000000000000, 0.000000000000000 ) );
#419 = CARTESIAN_POINT( '', ( 0.000000000000000, 0.000000000000000, -12.0000000000000 ) );
#420 = DIRECTION( '', ( 0.000000000000000, 0.000000000000000, 1.00000000000000 ) );
#421 = DIRECTION( '', ( 1.00000000000000, 0.000000000000000, 0.000000000000000 ) );
#422 = CARTESIAN_POINT( '', ( 0.000000000000000, 0.000000000000000, -13.0000000000000 ) );
#423 = DIRECTION( '', ( 0.000000000000000, 0.000000000000000, 1.00000000000000 ) );
#424 = DIRECTION( '', ( 1.00000000000000, 0.000000000000000, 0.000000000000000 ) );
#425 = CARTESIAN_POINT( '', ( 0.000000000000000, 0.000000000000000, -13.0000000000000 ) );
#426 = DIRECTION( '', ( 0.000000000000000, 0.000000000000000, 1.00000000000000 ) );
#427 = DIRECTION( '', ( 1.00000000000000, 0.000000000000000, 0.000000000000000 ) );
#428 = CARTESIAN_POINT( '', ( 0.000000000000000, 0.000000000000000, -14.2977531168232 ) );
#429 = DIRECTION( '', ( 0.000000000000000, 0.000000000000000, 1.00000000000000 ) );
#430 = DIRECTION( '', ( 1.00000000000000, 0.000000000000000, 0.000000000000000 ) );
#431 = CARTESIAN_POINT( '', ( 0.000000000000000, 0.000000000000000, -28.3511234415884 ) );
#432 = DIRECTION( '', ( 0.000000000000000, 0.000000000000000, 1.00000000000000 ) );
#433 = DIRECTION( '', ( 1.00000000000000, 0.000000000000000, 0.000000000000000 ) );
#434 = CARTESIAN_POINT( '', ( 0.000000000000000, 0.000000000000000, -29.0000000000000 ) );
#435 = DIRECTION( '', ( 0.000000000000000, 0.000000000000000, 1.00000000000000 ) );
#436 = DIRECTION( '', ( 1.00000000000000, 0.000000000000000, 0.000000000000000 ) );
#437 = CARTESIAN_POINT( '', ( 0.000000000000000, 0.000000000000000, -29.0000000000000 ) );
#438 = DIRECTION( '', ( 0.000000000000000, 0.000000000000000, 1.00000000000000 ) );
#439 = DIRECTION( '', ( 1.00000000000000, 0.000000000000000, 0.000000000000000 ) );
#440 = CARTESIAN_POINT( '', ( 0.000000000000000, 0.000000000000000, -28.0000000000000 ) );
#441 = DIRECTION( '', ( 0.000000000000000, 0.000000000000000, 1.00000000000000 ) );
#442 = DIRECTION( '', ( 1.00000000000000, 0.000000000000000, 0.000000000000000 ) );
#443 = CARTESIAN_POINT( '', ( 0.000000000000000, 0.000000000000000, 0.000000000000000 ) );
#444 = DIRECTION( '', ( 0.000000000000000, 0.000000000000000, 1.00000000000000 ) );
#445 = DIRECTION( '', ( 1.00000000000000, 0.000000000000000, 0.000000000000000 ) );
ENDSEC;
END-ISO-10303-21;
